ISO-10303-21;
HEADER;
FILE_DESCRIPTION (( 'STEP AP203' ),
    '1' );
FILE_NAME ('482548846_c_1.STEP',
    '2022-12-05T14:41:28',
    ( '' ),
    ( '' ),
    'SwSTEP 2.0',
    'SolidWorks 2014',
    '' );
FILE_SCHEMA (( 'CONFIG_CONTROL_DESIGN' ));
ENDSEC;

DATA;
#1 = EDGE_LOOP ( 'NONE', ( #67, #60, #162, #325 ) ) ;
#2 = DIRECTION ( 'NONE',  ( 0.0000000000000000000, 0.0000000000000000000, 1.000000000000000000 ) ) ;
#3 = CARTESIAN_POINT ( 'NONE',  ( -14.00000000000000200, -27.00000000000000000, 5.299999999999988300 ) ) ;
#4 = VECTOR ( 'NONE', #191, 1000.000000000000000 ) ;
#5 = EDGE_LOOP ( 'NONE', ( #336, #235, #228, #196 ) ) ;
#6 = EDGE_CURVE ( 'NONE', #258, #355, #157, .T. ) ;
#7 = DIRECTION ( 'NONE',  ( 0.0000000000000000000, 0.0000000000000000000, 1.000000000000000000 ) ) ;
#8 = VECTOR ( 'NONE', #304, 1000.000000000000000 ) ;
#9 = PLANE ( 'NONE',  #253 ) ;
#10 = LINE ( 'NONE', #285, #76 ) ;
#11 = ADVANCED_BREP_SHAPE_REPRESENTATION ( '482548846_c_1', ( #37, #333 ), #322 ) ;
#12 = CLOSED_SHELL ( 'NONE', ( #54, #280, #217, #159, #252, #133, #27, #75, #24, #242 ) ) ;
#13 = CARTESIAN_POINT ( 'NONE',  ( 14.00000000000000000, 0.0000000000000000000, -1.065814103639999900E-014 ) ) ;
#14 = CARTESIAN_POINT ( 'NONE',  ( 14.00000000000000000, 0.0000000000000000000, -1.065814103639999900E-014 ) ) ;
#15 = APPROVAL_STATUS ( 'not_yet_approved' ) ;
#16 = VECTOR ( 'NONE', #299, 1000.000000000000000 ) ;
#17 = ORIENTED_EDGE ( 'NONE', *, *, #363, .T. ) ;
#18 = CARTESIAN_POINT ( 'NONE',  ( 14.00000000000000000, -27.00000000000000000, -1.065814103639999900E-014 ) ) ;
#19 = APPLICATION_CONTEXT ( 'configuration controlled 3d designs of mechanical parts and assemblies' ) ;
#20 = PLANE ( 'NONE',  #57 ) ;
#21 = PERSON_AND_ORGANIZATION_ROLE ( 'creator' ) ;
#22 = COORDINATED_UNIVERSAL_TIME_OFFSET ( 8, 0, .BEHIND. ) ;
#23 = FACE_OUTER_BOUND ( 'NONE', #177, .T. ) ;
#24 = ADVANCED_FACE ( 'NONE', ( #366 ), #137, .F. ) ;
#25 = LINE ( 'NONE', #289, #238 ) ;
#26 = VERTEX_POINT ( 'NONE', #109 ) ;
#27 = ADVANCED_FACE ( 'NONE', ( #23 ), #106, .T. ) ;
#28 = COORDINATED_UNIVERSAL_TIME_OFFSET ( 8, 0, .BEHIND. ) ;
#29 = VECTOR ( 'NONE', #348, 1000.000000000000000 ) ;
#30 = CARTESIAN_POINT ( 'NONE',  ( -14.00000000000000000, -8.325187540310940500, 30.00000000000000000 ) ) ;
#31 = VECTOR ( 'NONE', #314, 1000.000000000000000 ) ;
#32 = EDGE_LOOP ( 'NONE', ( #282, #73, #317, #188, #146, #117, #190, #346 ) ) ;
#33 = CARTESIAN_POINT ( 'NONE',  ( -14.00000000000000000, -27.00000000000000000, 5.299999999999990100 ) ) ;
#34 = DIRECTION ( 'NONE',  ( 1.000000000000000000, -6.123233995736752500E-017, 6.123233995736752500E-017 ) ) ;
#35 = LINE ( 'NONE', #18, #216 ) ;
#36 = LINE ( 'NONE', #347, #233 ) ;
#37 = MANIFOLD_SOLID_BREP ( 'Volumenk\X\F6rper1', #12 ) ;
#38 = AXIS2_PLACEMENT_3D ( 'NONE', #79, #231, #342 ) ;
#39 = DIRECTION ( 'NONE',  ( -1.224646799147350000E-016, -1.000000000000000000, 0.0000000000000000000 ) ) ;
#40 = FACE_OUTER_BOUND ( 'NONE', #32, .T. ) ;
#41 = DIRECTION ( 'NONE',  ( -1.000000000000000000, 6.123233995736752500E-017, -6.123233995736752500E-017 ) ) ;
#42 = LINE ( 'NONE', #340, #248 ) ;
#43 = VERTEX_POINT ( 'NONE', #341 ) ;
#44 = CARTESIAN_POINT ( 'NONE',  ( -14.00000000000000000, -29.99999999999997900, 8.325187540310963600 ) ) ;
#45 = DIRECTION ( 'NONE',  ( -1.224646799147350000E-016, -1.000000000000000000, 0.0000000000000000000 ) ) ;
#46 = APPROVAL_ROLE ( '' ) ;
#47 = CALENDAR_DATE ( 2022, 5, 12 ) ;
#48 = ORIENTED_EDGE ( 'NONE', *, *, #6, .F. ) ;
#49 = EDGE_CURVE ( 'NONE', #183, #170, #10, .T. ) ;
#50 = DIRECTION ( 'NONE',  ( -1.000000000000000000, 0.0000000000000000000, -0.0000000000000000000 ) ) ;
#51 = DATE_AND_TIME ( #279, #107 ) ;
#52 = LINE ( 'NONE', #206, #187 ) ;
#53 = ORIENTED_EDGE ( 'NONE', *, *, #140, .T. ) ;
#54 = ADVANCED_FACE ( 'NONE', ( #251 ), #312, .F. ) ;
#55 = APPROVAL_DATE_TIME ( #186, #343 ) ;
#56 = ORIENTED_EDGE ( 'NONE', *, *, #338, .T. ) ;
#57 = AXIS2_PLACEMENT_3D ( 'NONE', #123, #45, #246 ) ;
#58 = DATE_AND_TIME ( #80, #129 ) ;
#59 = ORIENTED_EDGE ( 'NONE', *, *, #179, .T. ) ;
#60 = ORIENTED_EDGE ( 'NONE', *, *, #230, .F. ) ;
#61 = DIRECTION ( 'NONE',  ( -0.0000000000000000000, 0.7071067811865474600, 0.7071067811865474600 ) ) ;
#62 = PERSON_AND_ORGANIZATION ( #85, #88 ) ;
#63 = ORIENTED_EDGE ( 'NONE', *, *, #65, .T. ) ;
#64 = CARTESIAN_POINT ( 'NONE',  ( 14.00000000000000400, -27.00000000000000400, 5.299999999999987400 ) ) ;
#65 = EDGE_CURVE ( 'NONE', #170, #269, #42, .T. ) ;
#66 = LINE ( 'NONE', #164, #335 ) ;
#67 = ORIENTED_EDGE ( 'NONE', *, *, #185, .F. ) ;
#68 = CC_DESIGN_PERSON_AND_ORGANIZATION_ASSIGNMENT ( #261, #21, ( #308 ) ) ;
#69 = EDGE_CURVE ( 'NONE', #83, #183, #66, .T. ) ;
#70 = ORIENTED_EDGE ( 'NONE', *, *, #160, .T. ) ;
#71 = CARTESIAN_POINT ( 'NONE',  ( 14.00000000000000500, -5.299999999999964300, 27.00000000000000400 ) ) ;
#72 = LOCAL_TIME ( 6, 41, 28.00000000000000000, #116 ) ;
#73 = ORIENTED_EDGE ( 'NONE', *, *, #179, .F. ) ;
#74 = ORIENTED_EDGE ( 'NONE', *, *, #311, .F. ) ;
#75 = ADVANCED_FACE ( 'NONE', ( #204 ), #223, .T. ) ;
#76 = VECTOR ( 'NONE', #82, 1000.000000000000000 ) ;
#77 = CARTESIAN_POINT ( 'NONE',  ( 14.00000000000000000, -30.00000000000000000, 27.00000000000000000 ) ) ;
#78 = EDGE_CURVE ( 'NONE', #150, #199, #169, .T. ) ;
#79 = CARTESIAN_POINT ( 'NONE',  ( -14.00000000000000000, -27.00000000000000000, 5.299999999999990100 ) ) ;
#80 = CALENDAR_DATE ( 2022, 5, 12 ) ;
#81 = EDGE_LOOP ( 'NONE', ( #74, #53, #332, #84 ) ) ;
#82 = DIRECTION ( 'NONE',  ( -1.224646799147350000E-016, -1.000000000000000000, 0.0000000000000000000 ) ) ;
#83 = VERTEX_POINT ( 'NONE', #3 ) ;
#84 = ORIENTED_EDGE ( 'NONE', *, *, #65, .F. ) ;
#85 = PERSON ( 'UNSPECIFIED', 'UNSPECIFIED', 'UNSPECIFIED', ('UNSPECIFIED'), ('UNSPECIFIED'), ('UNSPECIFIED') ) ;
#86 = DIRECTION ( 'NONE',  ( 1.224646799147350000E-016, 1.000000000000000000, -0.0000000000000000000 ) ) ;
#87 = CARTESIAN_POINT ( 'NONE',  ( 14.00000000000000000, 0.0000000000000000000, 27.00000000000000000 ) ) ;
#88 = ORGANIZATION ( 'UNSPECIFIED', 'UNSPECIFIED', '' ) ;
#89 = LINE ( 'NONE', #323, #16 ) ;
#90 = DIRECTION ( 'NONE',  ( 1.000000000000000000, -1.224646799147350000E-016, 0.0000000000000000000 ) ) ;
#91 = EDGE_CURVE ( 'NONE', #263, #150, #108, .T. ) ;
#92 = DIRECTION ( 'NONE',  ( -0.0000000000000000000, -0.0000000000000000000, -1.000000000000000000 ) ) ;
#93 = VECTOR ( 'NONE', #86, 1000.000000000000000 ) ;
#94 = EDGE_LOOP ( 'NONE', ( #339, #56, #17, #210, #276, #63, #70, #281 ) ) ;
#95 = CARTESIAN_POINT ( 'NONE',  ( -14.00000000000000000, 0.0000000000000000000, -1.065814103639999900E-014 ) ) ;
#96 = DIRECTION ( 'NONE',  ( 1.000000000000000000, 0.0000000000000000000, 0.0000000000000000000 ) ) ;
#97 = CARTESIAN_POINT ( 'NONE',  ( -14.00000000000000200, -29.99999999999999300, 8.325187540310981400 ) ) ;
#98 = SECURITY_CLASSIFICATION_LEVEL ( 'unclassified' ) ;
#99 = COORDINATED_UNIVERSAL_TIME_OFFSET ( 8, 0, .BEHIND. ) ;
#100 = EDGE_CURVE ( 'NONE', #263, #297, #324, .T. ) ;
#101 = LINE ( 'NONE', #262, #29 ) ;
#102 = VECTOR ( 'NONE', #111, 1000.000000000000000 ) ;
#103 = ORIENTED_EDGE ( 'NONE', *, *, #91, .F. ) ;
#104 = EDGE_CURVE ( 'NONE', #149, #258, #36, .T. ) ;
#105 = PRODUCT_DEFINITION_SHAPE ( 'NONE', 'NONE',  #308 ) ;
#106 = PLANE ( 'NONE',  #142 ) ;
#107 = LOCAL_TIME ( 6, 41, 28.00000000000000000, #22 ) ;
#108 = LINE ( 'NONE', #198, #31 ) ;
#109 = CARTESIAN_POINT ( 'NONE',  ( -14.00000000000000000, -5.299999999999963400, 27.00000000000000400 ) ) ;
#110 = LINE ( 'NONE', #359, #301 ) ;
#111 = DIRECTION ( 'NONE',  ( 1.224646799147350000E-016, 1.000000000000000000, -0.0000000000000000000 ) ) ;
#112 = EDGE_LOOP ( 'NONE', ( #362, #222, #296, #139 ) ) ;
#113 = DIRECTION ( 'NONE',  ( 1.000000000000000000, 0.0000000000000000000, -0.0000000000000000000 ) ) ;
#114 = CC_DESIGN_DATE_AND_TIME_ASSIGNMENT ( #194, #212, ( #313 ) ) ;
#115 = DIRECTION ( 'NONE',  ( 0.0000000000000000000, 0.0000000000000000000, -1.000000000000000000 ) ) ;
#116 = COORDINATED_UNIVERSAL_TIME_OFFSET ( 8, 0, .BEHIND. ) ;
#117 = ORIENTED_EDGE ( 'NONE', *, *, #130, .F. ) ;
#118 = DIRECTION ( 'NONE',  ( -1.000000000000000000, -0.0000000000000000000, 0.0000000000000000000 ) ) ;
#119 = ORIENTED_EDGE ( 'NONE', *, *, #147, .T. ) ;
#120 = VERTEX_POINT ( 'NONE', #171 ) ;
#121 = CC_DESIGN_DATE_AND_TIME_ASSIGNMENT ( #247, #278, ( #308 ) ) ;
#122 = MECHANICAL_CONTEXT ( 'NONE', #19, 'mechanical' ) ;
#123 = CARTESIAN_POINT ( 'NONE',  ( 14.00000000000000000, -27.00000000000000000, -1.065814103639999900E-014 ) ) ;
#124 = FACE_OUTER_BOUND ( 'NONE', #81, .T. ) ;
#125 = ORIENTED_EDGE ( 'NONE', *, *, #214, .F. ) ;
#126 = CARTESIAN_POINT ( 'NONE',  ( 14.00000000000000000, 1.124819836996387200E-032, 27.00000000000000000 ) ) ;
#127 = DIRECTION ( 'NONE',  ( 0.0000000000000000000, 0.0000000000000000000, 1.000000000000000000 ) ) ;
#128 = AXIS2_PLACEMENT_3D ( 'NONE', #30, #193, #256 ) ;
#129 = LOCAL_TIME ( 6, 41, 28.00000000000000000, #28 ) ;
#130 = EDGE_CURVE ( 'NONE', #43, #120, #25, .T. ) ;
#131 = ORIENTED_EDGE ( 'NONE', *, *, #160, .F. ) ;
#132 = CC_DESIGN_APPROVAL ( #239, ( #313 ) ) ;
#133 = ADVANCED_FACE ( 'NONE', ( #161 ), #291, .T. ) ;
#134 = APPROVAL_PERSON_ORGANIZATION ( #203, #200, #154 ) ;
#135 = ORIENTED_EDGE ( 'NONE', *, *, #255, .F. ) ;
#136 = AXIS2_PLACEMENT_3D ( 'NONE', #259, #7, #113 ) ;
#137 = PLANE ( 'NONE',  #128 ) ;
#138 = EDGE_CURVE ( 'NONE', #83, #149, #268, .T. ) ;
#139 = ORIENTED_EDGE ( 'NONE', *, *, #78, .T. ) ;
#140 = EDGE_CURVE ( 'NONE', #120, #309, #174, .T. ) ;
#141 = DIRECTION ( 'NONE',  ( 0.0000000000000000000, 0.0000000000000000000, 1.000000000000000000 ) ) ;
#142 = AXIS2_PLACEMENT_3D ( 'NONE', #229, #254, #163 ) ;
#143 = EDGE_LOOP ( 'NONE', ( #103, #131, #369, #302 ) ) ;
#144 = CARTESIAN_POINT ( 'NONE',  ( 14.00000000000000000, 1.445919139244181900E-111, 30.00000000000000000 ) ) ;
#145 = VECTOR ( 'NONE', #34, 1000.000000000000000 ) ;
#146 = ORIENTED_EDGE ( 'NONE', *, *, #140, .F. ) ;
#147 = EDGE_CURVE ( 'NONE', #297, #199, #101, .T. ) ;
#148 = DIRECTION ( 'NONE',  ( -1.224646799147350000E-016, -1.000000000000000000, 0.0000000000000000000 ) ) ;
#149 = VERTEX_POINT ( 'NONE', #64 ) ;
#150 = VERTEX_POINT ( 'NONE', #351 ) ;
#151 = CC_DESIGN_SECURITY_CLASSIFICATION ( #313, ( #158 ) ) ;
#152 = CARTESIAN_POINT ( 'NONE',  ( -14.00000000000000000, 2.249639673992777100E-032, 27.00000000000000000 ) ) ;
#153 = CARTESIAN_POINT ( 'NONE',  ( 14.00000000000000200, -29.99999999999999300, 8.325187540310983200 ) ) ;
#154 = APPROVAL_ROLE ( '' ) ;
#155 = DIRECTION ( 'NONE',  ( 0.0000000000000000000, -0.7071067811865474600, -0.7071067811865474600 ) ) ;
#156 = FACE_OUTER_BOUND ( 'NONE', #1, .T. ) ;
#157 = LINE ( 'NONE', #77, #4 ) ;
#158 = PRODUCT_DEFINITION_FORMATION_WITH_SPECIFIED_SOURCE ( 'ANY', '', #243, .NOT_KNOWN. ) ;
#159 = ADVANCED_FACE ( 'NONE', ( #257 ), #232, .F. ) ;
#160 = EDGE_CURVE ( 'NONE', #269, #263, #227, .T. ) ;
#161 = FACE_OUTER_BOUND ( 'NONE', #5, .T. ) ;
#162 = ORIENTED_EDGE ( 'NONE', *, *, #69, .F. ) ;
#163 = DIRECTION ( 'NONE',  ( 0.0000000000000000000, -1.499759782661849900E-032, 1.000000000000000000 ) ) ;
#164 = CARTESIAN_POINT ( 'NONE',  ( -14.00000000000000000, -26.99999999999999600, -1.065814103639999900E-014 ) ) ;
#165 = CALENDAR_DATE ( 2022, 5, 12 ) ;
#166 = LINE ( 'NONE', #87, #218 ) ;
#167 = EDGE_CURVE ( 'NONE', #355, #290, #166, .T. ) ;
#168 = DIRECTION ( 'NONE',  ( -1.224646799147350000E-016, -1.000000000000000000, 0.0000000000000000000 ) ) ;
#169 = LINE ( 'NONE', #264, #102 ) ;
#170 = VERTEX_POINT ( 'NONE', #295 ) ;
#171 = CARTESIAN_POINT ( 'NONE',  ( 13.99999999999999800, -30.00000000000000000, -1.065814103639999900E-014 ) ) ;
#172 = APPROVAL_PERSON_ORGANIZATION ( #337, #343, #46 ) ;
#173 = CARTESIAN_POINT ( 'NONE',  ( -14.00000000000000000, 0.0000000000000000000, 30.00000000000000000 ) ) ;
#174 = LINE ( 'NONE', #234, #306 ) ;
#175 = EDGE_CURVE ( 'NONE', #309, #150, #52, .T. ) ;
#176 = CARTESIAN_POINT ( 'NONE',  ( -14.00000000000000400, -30.00000000000000000, 8.325187540310990300 ) ) ;
#177 = EDGE_LOOP ( 'NONE', ( #119, #59, #345, #135 ) ) ;
#178 = CARTESIAN_POINT ( 'NONE',  ( -14.00000000000000000, -27.00000000000000000, 5.299999999999990100 ) ) ;
#179 = EDGE_CURVE ( 'NONE', #199, #355, #241, .T. ) ;
#180 = CARTESIAN_POINT ( 'NONE',  ( -14.00000000000000000, 1.285673212128732100E-047, 30.00000000000000000 ) ) ;
#181 = APPLICATION_CONTEXT ( 'configuration controlled 3d designs of mechanical parts and assemblies' ) ;
#182 = APPROVAL_PERSON_ORGANIZATION ( #283, #239, #361 ) ;
#183 = VERTEX_POINT ( 'NONE', #321 ) ;
#184 = APPLICATION_PROTOCOL_DEFINITION ( 'international standard', 'config_control_design', 1994, #181 ) ;
#185 = EDGE_CURVE ( 'NONE', #43, #149, #89, .T. ) ;
#186 = DATE_AND_TIME ( #226, #286 ) ;
#187 = VECTOR ( 'NONE', #300, 1000.000000000000000 ) ;
#188 = ORIENTED_EDGE ( 'NONE', *, *, #175, .F. ) ;
#189 = SHAPE_DEFINITION_REPRESENTATION ( #105, #11 ) ;
#190 = ORIENTED_EDGE ( 'NONE', *, *, #185, .T. ) ;
#191 = DIRECTION ( 'NONE',  ( -0.0000000000000000000, 1.000000000000000000, 0.0000000000000000000 ) ) ;
#192 = EDGE_CURVE ( 'NONE', #309, #269, #287, .T. ) ;
#193 = DIRECTION ( 'NONE',  ( 8.659560562354914400E-017, 0.7071067811865475700, -0.7071067811865475700 ) ) ;
#194 = DATE_AND_TIME ( #47, #349 ) ;
#195 = EDGE_LOOP ( 'NONE', ( #284, #367, #48, #350 ) ) ;
#196 = ORIENTED_EDGE ( 'NONE', *, *, #130, .T. ) ;
#197 = DIRECTION ( 'NONE',  ( -1.000000000000000000, 0.0000000000000000000, -0.0000000000000000000 ) ) ;
#198 = CARTESIAN_POINT ( 'NONE',  ( 14.00000000000000000, -8.325187540310938800, 30.00000000000000000 ) ) ;
#199 = VERTEX_POINT ( 'NONE', #144 ) ;
#200 = APPROVAL ( #327, 'UNSPECIFIED' ) ;
#201 = UNCERTAINTY_MEASURE_WITH_UNIT (LENGTH_MEASURE( 1.000000000000000100E-005 ), #357, 'distance_accuracy_value', 'NONE');
#202 = CARTESIAN_POINT ( 'NONE',  ( 14.00000000000000000, -30.00000000000000000, -1.065814103639999900E-014 ) ) ;
#203 = PERSON_AND_ORGANIZATION ( #85, #88 ) ;
#204 = FACE_OUTER_BOUND ( 'NONE', #112, .T. ) ;
#205 = CARTESIAN_POINT ( 'NONE',  ( -14.00000000000000000, -5.299999999999971400, 27.00000000000001800 ) ) ;
#206 = CARTESIAN_POINT ( 'NONE',  ( 13.99999999999999600, -30.00000000000000000, 8.325187540310990300 ) ) ;
#207 = DIRECTION ( 'NONE',  ( -1.000000000000000000, 1.224646799147350000E-016, 0.0000000000000000000 ) ) ;
#208 = PERSON_AND_ORGANIZATION_ROLE ( 'design_owner' ) ;
#209 = PERSON_AND_ORGANIZATION ( #85, #88 ) ;
#210 = ORIENTED_EDGE ( 'NONE', *, *, #69, .T. ) ;
#211 = APPLICATION_PROTOCOL_DEFINITION ( 'international standard', 'config_control_design', 1994, #19 ) ;
#212 = DATE_TIME_ROLE ( 'classification_date' ) ;
#213 = AXIS2_PLACEMENT_3D ( 'NONE', #292, #260, #318 ) ;
#214 = EDGE_CURVE ( 'NONE', #258, #26, #365, .T. ) ;
#215 = PERSON_AND_ORGANIZATION_ROLE ( 'classification_officer' ) ;
#216 = VECTOR ( 'NONE', #245, 1000.000000000000000 ) ;
#217 = ADVANCED_FACE ( 'NONE', ( #320 ), #240, .T. ) ;
#218 = VECTOR ( 'NONE', #118, 1000.000000000000000 ) ;
#219 = ORIENTED_EDGE ( 'NONE', *, *, #138, .F. ) ;
#220 = CC_DESIGN_PERSON_AND_ORGANIZATION_ASSIGNMENT ( #62, #215, ( #313 ) ) ;
#221 = VECTOR ( 'NONE', #155, 1000.000000000000100 ) ;
#222 = ORIENTED_EDGE ( 'NONE', *, *, #100, .F. ) ;
#223 = PLANE ( 'NONE',  #136 ) ;
#224 = DIRECTION ( 'NONE',  ( 0.0000000000000000000, -0.0000000000000000000, -1.000000000000000000 ) ) ;
#225 = PRODUCT_RELATED_PRODUCT_CATEGORY ( 'detail', '', ( #243 ) ) ;
#226 = CALENDAR_DATE ( 2022, 5, 12 ) ;
#227 = LINE ( 'NONE', #176, #315 ) ;
#228 = ORIENTED_EDGE ( 'NONE', *, *, #230, .T. ) ;
#229 = CARTESIAN_POINT ( 'NONE',  ( 14.00000000000000000, 0.0000000000000000000, 30.00000000000000000 ) ) ;
#230 = EDGE_CURVE ( 'NONE', #183, #43, #35, .T. ) ;
#231 = DIRECTION ( 'NONE',  ( -8.659560562354914400E-017, -0.7071067811865475700, 0.7071067811865475700 ) ) ;
#232 = PLANE ( 'NONE',  #213 ) ;
#233 = VECTOR ( 'NONE', #61, 1000.000000000000100 ) ;
#234 = CARTESIAN_POINT ( 'NONE',  ( 13.99999999999999600, -30.00000000000000000, -1.065814103639999900E-014 ) ) ;
#235 = ORIENTED_EDGE ( 'NONE', *, *, #49, .F. ) ;
#236 = AXIS2_PLACEMENT_3D ( 'NONE', #95, #207, #358 ) ;
#237 = APPROVAL_DATE_TIME ( #58, #200 ) ;
#238 = VECTOR ( 'NONE', #168, 1000.000000000000000 ) ;
#239 = APPROVAL ( #15, 'UNSPECIFIED' ) ;
#240 = PLANE ( 'NONE',  #236 ) ;
#241 = LINE ( 'NONE', #14, #310 ) ;
#242 = ADVANCED_FACE ( 'NONE', ( #124 ), #9, .T. ) ;
#243 = PRODUCT ( '482548846_c_1', '482548846_c_1', '', ( #122 ) ) ;
#244 = EDGE_LOOP ( 'NONE', ( #307, #125, #288, #219 ) ) ;
#245 = DIRECTION ( 'NONE',  ( 1.000000000000000000, -1.224646799147350000E-016, 0.0000000000000000000 ) ) ;
#246 = DIRECTION ( 'NONE',  ( 1.000000000000000000, -1.224646799147350000E-016, 0.0000000000000000000 ) ) ;
#247 = DATE_AND_TIME ( #165, #72 ) ;
#248 = VECTOR ( 'NONE', #2, 1000.000000000000000 ) ;
#249 =( NAMED_UNIT ( * ) SI_UNIT ( $, .STERADIAN. ) SOLID_ANGLE_UNIT ( ) );
#250 = AXIS2_PLACEMENT_3D ( 'NONE', #316, #115, #197 ) ;
#251 = FACE_OUTER_BOUND ( 'NONE', #244, .T. ) ;
#252 = ADVANCED_FACE ( 'NONE', ( #40 ), #352, .F. ) ;
#253 = AXIS2_PLACEMENT_3D ( 'NONE', #202, #39, #90 ) ;
#254 = DIRECTION ( 'NONE',  ( 1.836676017326760000E-048, 1.000000000000000000, 1.499759782661849900E-032 ) ) ;
#255 = EDGE_CURVE ( 'NONE', #297, #290, #331, .T. ) ;
#256 = DIRECTION ( 'NONE',  ( 0.0000000000000000000, 0.7071067811865474600, 0.7071067811865474600 ) ) ;
#257 = FACE_OUTER_BOUND ( 'NONE', #195, .T. ) ;
#258 = VERTEX_POINT ( 'NONE', #71 ) ;
#259 = CARTESIAN_POINT ( 'NONE',  ( 14.00000000000000000, -30.00000000000000000, 30.00000000000000000 ) ) ;
#260 = DIRECTION ( 'NONE',  ( 0.0000000000000000000, 0.0000000000000000000, 1.000000000000000000 ) ) ;
#261 = PERSON_AND_ORGANIZATION ( #85, #88 ) ;
#262 = CARTESIAN_POINT ( 'NONE',  ( 14.00000000000000000, 1.156735311395345500E-110, 30.00000000000000000 ) ) ;
#263 = VERTEX_POINT ( 'NONE', #329 ) ;
#264 = CARTESIAN_POINT ( 'NONE',  ( 14.00000000000000000, 0.0000000000000000000, 30.00000000000000000 ) ) ;
#265 = DIRECTION ( 'NONE',  ( 5.659263422131116500E-017, 0.7071067811865483500, 0.7071067811865468000 ) ) ;
#266 = AXIS2_PLACEMENT_3D ( 'NONE', #13, #328, #270 ) ;
#267 = PERSON_AND_ORGANIZATION ( #85, #88 ) ;
#268 = LINE ( 'NONE', #33, #145 ) ;
#269 = VERTEX_POINT ( 'NONE', #97 ) ;
#270 = DIRECTION ( 'NONE',  ( -1.224646799147350000E-016, -1.000000000000000000, 0.0000000000000000000 ) ) ;
#271 = CARTESIAN_POINT ( 'NONE',  ( 0.0000000000000000000, 0.0000000000000000000, 0.0000000000000000000 ) ) ;
#272 = CC_DESIGN_PERSON_AND_ORGANIZATION_ASSIGNMENT ( #353, #364, ( #158 ) ) ;
#273 = CARTESIAN_POINT ( 'NONE',  ( 14.00000000000000000, -30.00000000000000000, -1.065814103639999900E-014 ) ) ;
#274 = LINE ( 'NONE', #273, #319 ) ;
#275 =( NAMED_UNIT ( * ) PLANE_ANGLE_UNIT ( ) SI_UNIT ( $, .RADIAN. ) );
#276 = ORIENTED_EDGE ( 'NONE', *, *, #49, .T. ) ;
#277 = PERSON_AND_ORGANIZATION_ROLE ( 'design_supplier' ) ;
#278 = DATE_TIME_ROLE ( 'creation_date' ) ;
#279 = CALENDAR_DATE ( 2022, 5, 12 ) ;
#280 = ADVANCED_FACE ( 'NONE', ( #156 ), #20, .F. ) ;
#281 = ORIENTED_EDGE ( 'NONE', *, *, #100, .T. ) ;
#282 = ORIENTED_EDGE ( 'NONE', *, *, #6, .T. ) ;
#283 = PERSON_AND_ORGANIZATION ( #85, #88 ) ;
#284 = ORIENTED_EDGE ( 'NONE', *, *, #338, .F. ) ;
#285 = CARTESIAN_POINT ( 'NONE',  ( -14.00000000000000000, 0.0000000000000000000, -1.065814103639999900E-014 ) ) ;
#286 = LOCAL_TIME ( 6, 41, 28.00000000000000000, #99 ) ;
#287 = LINE ( 'NONE', #44, #354 ) ;
#288 = ORIENTED_EDGE ( 'NONE', *, *, #104, .F. ) ;
#289 = CARTESIAN_POINT ( 'NONE',  ( 14.00000000000000000, 0.0000000000000000000, -1.065814103639999900E-014 ) ) ;
#290 = VERTEX_POINT ( 'NONE', #152 ) ;
#291 = PLANE ( 'NONE',  #250 ) ;
#292 = CARTESIAN_POINT ( 'NONE',  ( 14.00000000000000000, -30.00000000000000000, 27.00000000000000000 ) ) ;
#293 = CC_DESIGN_PERSON_AND_ORGANIZATION_ASSIGNMENT ( #209, #208, ( #243 ) ) ;
#294 = VECTOR ( 'NONE', #41, 1000.000000000000000 ) ;
#295 = CARTESIAN_POINT ( 'NONE',  ( -14.00000000000000200, -30.00000000000000000, -1.065814103639999900E-014 ) ) ;
#296 = ORIENTED_EDGE ( 'NONE', *, *, #91, .T. ) ;
#297 = VERTEX_POINT ( 'NONE', #180 ) ;
#298 = CC_DESIGN_PERSON_AND_ORGANIZATION_ASSIGNMENT ( #267, #277, ( #158 ) ) ;
#299 = DIRECTION ( 'NONE',  ( -0.0000000000000000000, 0.0000000000000000000, 1.000000000000000000 ) ) ;
#300 = DIRECTION ( 'NONE',  ( 5.659263422131116500E-017, 0.7071067811865483500, 0.7071067811865468000 ) ) ;
#301 = VECTOR ( 'NONE', #148, 1000.000000000000000 ) ;
#302 = ORIENTED_EDGE ( 'NONE', *, *, #175, .T. ) ;
#303 = CARTESIAN_POINT ( 'NONE',  ( -14.00000000000000000, 0.0000000000000000000, -1.065814103639999900E-014 ) ) ;
#304 = DIRECTION ( 'NONE',  ( -0.0000000000000000000, -0.0000000000000000000, -1.000000000000000000 ) ) ;
#305 = CC_DESIGN_APPROVAL ( #200, ( #158 ) ) ;
#306 = VECTOR ( 'NONE', #141, 1000.000000000000000 ) ;
#307 = ORIENTED_EDGE ( 'NONE', *, *, #363, .F. ) ;
#308 = PRODUCT_DEFINITION ( 'UNKNOWN', '', #158, #356 ) ;
#309 = VERTEX_POINT ( 'NONE', #153 ) ;
#310 = VECTOR ( 'NONE', #92, 1000.000000000000000 ) ;
#311 = EDGE_CURVE ( 'NONE', #120, #170, #274, .T. ) ;
#312 = PLANE ( 'NONE',  #38 ) ;
#313 = SECURITY_CLASSIFICATION ( '', '', #98 ) ;
#314 = DIRECTION ( 'NONE',  ( 1.000000000000000000, 0.0000000000000000000, -0.0000000000000000000 ) ) ;
#315 = VECTOR ( 'NONE', #265, 1000.000000000000000 ) ;
#316 = CARTESIAN_POINT ( 'NONE',  ( 14.00000000000000000, 0.0000000000000000000, -1.065814103639999900E-014 ) ) ;
#317 = ORIENTED_EDGE ( 'NONE', *, *, #78, .F. ) ;
#318 = DIRECTION ( 'NONE',  ( 1.000000000000000000, 0.0000000000000000000, -0.0000000000000000000 ) ) ;
#319 = VECTOR ( 'NONE', #50, 1000.000000000000000 ) ;
#320 = FACE_OUTER_BOUND ( 'NONE', #94, .T. ) ;
#321 = CARTESIAN_POINT ( 'NONE',  ( -14.00000000000000200, -26.99999999999999600, -1.065814103639999900E-014 ) ) ;
#322 =( GEOMETRIC_REPRESENTATION_CONTEXT ( 3 ) GLOBAL_UNCERTAINTY_ASSIGNED_CONTEXT ( ( #201 ) ) GLOBAL_UNIT_ASSIGNED_CONTEXT ( ( #357, #275, #249 ) ) REPRESENTATION_CONTEXT ( 'NONE', 'WORKASPACE' ) );
#323 = CARTESIAN_POINT ( 'NONE',  ( 14.00000000000000000, -27.00000000000000000, -1.065814103639999900E-014 ) ) ;
#324 = LINE ( 'NONE', #173, #93 ) ;
#325 = ORIENTED_EDGE ( 'NONE', *, *, #138, .T. ) ;
#326 = DIRECTION ( 'NONE',  ( -1.000000000000000000, 6.123233995736752500E-017, -6.123233995736752500E-017 ) ) ;
#327 = APPROVAL_STATUS ( 'not_yet_approved' ) ;
#328 = DIRECTION ( 'NONE',  ( -1.000000000000000000, 1.224646799147350000E-016, 0.0000000000000000000 ) ) ;
#329 = CARTESIAN_POINT ( 'NONE',  ( -14.00000000000000200, -8.325187540310938800, 30.00000000000000000 ) ) ;
#330 = APPROVAL_STATUS ( 'not_yet_approved' ) ;
#331 = LINE ( 'NONE', #303, #8 ) ;
#332 = ORIENTED_EDGE ( 'NONE', *, *, #192, .T. ) ;
#333 = AXIS2_PLACEMENT_3D ( 'NONE', #271, #127, #96 ) ;
#334 = LINE ( 'NONE', #178, #221 ) ;
#335 = VECTOR ( 'NONE', #224, 1000.000000000000000 ) ;
#336 = ORIENTED_EDGE ( 'NONE', *, *, #311, .T. ) ;
#337 = PERSON_AND_ORGANIZATION ( #85, #88 ) ;
#338 = EDGE_CURVE ( 'NONE', #290, #26, #110, .T. ) ;
#339 = ORIENTED_EDGE ( 'NONE', *, *, #255, .T. ) ;
#340 = CARTESIAN_POINT ( 'NONE',  ( -14.00000000000000400, -30.00000000000000000, -1.065814103639999900E-014 ) ) ;
#341 = CARTESIAN_POINT ( 'NONE',  ( 13.99999999999999800, -27.00000000000000000, -1.065814103639999900E-014 ) ) ;
#342 = DIRECTION ( 'NONE',  ( 0.0000000000000000000, -0.7071067811865474600, -0.7071067811865474600 ) ) ;
#343 = APPROVAL ( #330, 'UNSPECIFIED' ) ;
#344 = APPROVAL_DATE_TIME ( #51, #239 ) ;
#345 = ORIENTED_EDGE ( 'NONE', *, *, #167, .T. ) ;
#346 = ORIENTED_EDGE ( 'NONE', *, *, #104, .T. ) ;
#347 = CARTESIAN_POINT ( 'NONE',  ( 14.00000000000001400, -27.00000000000000000, 5.299999999999991800 ) ) ;
#348 = DIRECTION ( 'NONE',  ( 1.000000000000000000, -1.836676017326760000E-048, -2.754572824566213800E-080 ) ) ;
#349 = LOCAL_TIME ( 6, 41, 28.00000000000000000, #360 ) ;
#350 = ORIENTED_EDGE ( 'NONE', *, *, #214, .T. ) ;
#351 = CARTESIAN_POINT ( 'NONE',  ( 14.00000000000000500, -8.325187540310940500, 30.00000000000000000 ) ) ;
#352 = PLANE ( 'NONE',  #266 ) ;
#353 = PERSON_AND_ORGANIZATION ( #85, #88 ) ;
#354 = VECTOR ( 'NONE', #326, 1000.000000000000000 ) ;
#355 = VERTEX_POINT ( 'NONE', #126 ) ;
#356 = DESIGN_CONTEXT ( 'detailed design', #181, 'design' ) ;
#357 =( LENGTH_UNIT ( ) NAMED_UNIT ( * ) SI_UNIT ( .MILLI., .METRE. ) );
#358 = DIRECTION ( 'NONE',  ( -1.224646799147350000E-016, -1.000000000000000000, 0.0000000000000000000 ) ) ;
#359 = CARTESIAN_POINT ( 'NONE',  ( -14.00000000000000000, 0.0000000000000000000, 27.00000000000000000 ) ) ;
#360 = COORDINATED_UNIVERSAL_TIME_OFFSET ( 8, 0, .BEHIND. ) ;
#361 = APPROVAL_ROLE ( '' ) ;
#362 = ORIENTED_EDGE ( 'NONE', *, *, #147, .F. ) ;
#363 = EDGE_CURVE ( 'NONE', #26, #83, #334, .T. ) ;
#364 = PERSON_AND_ORGANIZATION_ROLE ( 'creator' ) ;
#365 = LINE ( 'NONE', #205, #294 ) ;
#366 = FACE_OUTER_BOUND ( 'NONE', #143, .T. ) ;
#367 = ORIENTED_EDGE ( 'NONE', *, *, #167, .F. ) ;
#368 = CC_DESIGN_APPROVAL ( #343, ( #308 ) ) ;
#369 = ORIENTED_EDGE ( 'NONE', *, *, #192, .F. ) ;
ENDSEC;
END-ISO-10303-21;
